clases de guitarra del maistro Gin (h)

 
#
Publicar nuevo tema   Responder al tema    Portal » Foros de discusión -> Musica y por supuesto entre ella j-music no podía faltar
Ver tema anterior :: Ver tema siguiente  
Autor Mensaje
Gin






Registrado: 10 Sep 2009
Mensajes: 56
Ubicación: monterrey mexico



MensajePublicado: Dom Sep 20, 2009 8:46 pm    Asunto: clases de guitarra del maistro Gin (h) Responder citando

bueno eh aqui unas partituras de mis canciones favoritas si quieren que les ayude a sacar una canción o lo basico de la guitarra solo contacteme para cualquier duda o sugerencia
Gin_blocked@hotmail.com

esta es la mejor vesrsion de el solo de a dios le pido tienen que escuchar
la cancion para saber el ritmo.

E|-5-5-5-8-8-8-5-5-5-5-5-4|-----------------------------|
B|-5-5-5-------5-5-5-5-5--|-----------------------------|
G|-5-5-5-------5-5-5-5-5--|-----4-7-4---4-7-4--4-7-4----|
D|------------------------|---6-------6-------6------6-7|
A|------------------------|-----------------------------|
E|------------------------|-----------------------------|

E|-5-5-5-8-8-8-5-5-5-5-5-4|-----------------------------|
B|-5-5-5-------5-5-5-5-5--|-----------------------------|
G|-5-5-5-------5-5-5-5-5--|-----4-7-4---4-7-4--4-7-4----|
D|------------------------|---6-------6-------6------6-7|
A|------------------------|-----------------------------|
E|------------------------|-----------------------------|

E|-----------------------------------------------|
B|-----5---5-------5---5-------------------------|
G|---5---5---5---5---5---7-4-----4-7-7--4-7-7----|
D|-7-----------7-------------6-6------6------6-7-|
A|-----------------------------------------------|
E|-----------------------------------------------|

E|-----------5---5---5-5---4---|---7-10-8-7----8-7---------|
B|-----5---5---5---5-----5---5-|-9----------10-----10-9-10-|
G|---5---5---------------------|---------------------------|
D|-7---------------------------|---------------------------|
A|-----------------------------|---------------------------|
E|-----------------------------|---------------------------|

Am
Que mis ojos se despierten
E
con la luz de tu mirada
yo a Dios le pido

Am Dm
que mi madre no se muera
E
y que mi padre me recuerde
a Dios le pido

Am Dm
Que te quedes a mi lado
E
y que más nunca te me vayas mi vida
a Dios le pido
Am Dm
que mi alma no descanse
E
cuando de amarte se trate mi cielo
a Dios le pido

Am
Por los días que me quedan
E
y las noches que aun no llegan
yo a Dios le pido

Am Dm
por los hijos de mis hijos
E
y los hijos de tus hijos
a Dios le pido

Am Dm
Que mi pueblo no derrame tanta sangre
E
y se levante mi gente
a Dios le pido
Am Dm
que mi alma no descanse
E
cuando de amarte se trate mi cielo
a Dios le pido

Am E
Un segundo mas de vida para darte
G D
y mi corazón entero entregarte
Am E
un segundo mas de vida para darte
G D
y a tu lado para siempre yo quedarme
Am
un segundo mas de vida
E
yo a Dios le pido

C G
Que si me muero sea de amor
Am
y si me enamoro sea de vos
E
y que de tu voz sea este corazón
todos los días a Dios le pido
C G
que si me muero sea de amor
Am
y si me enamoro sea de vos
E
y que de tu voz sea este corazón
todos los días yoooooo a Dios le pido
Am
a Dios le pido

bueno ya no tengo tiempo :S en cuanto lo tenga pondre mas pd tambien pueden poner partituras de sus canciones para compartir

_________________
te amo gaby
mi pequeña sobrina

el verdadero asesino es el que mata por placer y no para alimentarse...
Volver arriba
Ver perfil de usuario Enviar mensaje privado Enviar email
Ahmed






Registrado: 12 Jul 2012
Mensajes: 87
Ubicación: Mexico



MensajePublicado: Jue Jul 19, 2012 1:35 am    Asunto: Responder citando

yo toco guitarra mas o menos bien. a ver que dia subo algo a youtube.

_________________
FIRMA !!! jajaja =)
Volver arriba
Ver perfil de usuario Enviar mensaje privado Visitar sitio web del autor Yahoo Messenger MSN Messenger
Mostrar mensajes de anteriores:   

#
Publicar nuevo tema   Responder al tema    Portal » Foros de discusión -> Musica y por supuesto entre ella j-music no podía faltarTodas las horas son GMT
Todas las horas son GMT
Página 1 de 1

 
Cambiar a:  
Puede publicar nuevos temas en este foro
No puede responder a temas en este foro
No puede editar sus mensajes en este foro
No puede borrar sus mensajes en este foro
No puede votar en encuestas en este foro


FAQ   |   Buscar   |   Miembros   |   Grupos de Usuarios   |   Registrarse   |   Perfil

Bannersmonster.Com © 2007

Powered by phpBB © 2001, 2002 phpBB Group
Designed by:wordpress designreverse phone book
mostrar